Üye Menüsü
  Kullanıcı Adı:
 
  Şifre:
 
  Her ziyaretimde otomatik giriş yap
 

 [ Şifremi unuttum ]
 [ Üye Ol ]
 


Arama Yap

Gelişmiş Arama İçin
Fakülte GOOGLE




almora-fantasy
 

Başlığa cevap gönder    -> Akorlar
Önceki başlık :: Sonraki başlık  
Yazar Mesaj

duygu__


Üye


Kayıt: 17 Arl 2006
Mesajlar: 45

Durumu : Offline

MesajTarih: Çrş Şub 07, 2007 3:20 pm    Mesaj konusu: almora-fantasy Alıntıyla Cevap Gönder

Fantasy
Almora

e-----7--2--2--3-5-3--2--3--0--2--3--0--2----0-------
b------------------------------------------3---2-----
g----------------------------------------------------
d----------------------------------------------------
a----------------------------------------------------
e----------------------------------------------------

e-----7--2--2--3-5-3--2--3--0--2----0----------------
b---------------------------------3----2---0---------
g---------------------------------------------------- x 2
d----------------------------------------------------
a----------------------------------------------------
e----------------------------------------------------
Başa dön
Üye profilini görüntüle Özel mesaj gönder
Sponsor

fultgs


Üye


Kayıt: 03 Şub 2008
Mesajlar: 23
Şehir: Kayseri

Cinsiyet: Cinsiyet:Bay

Durumu : Offline

MesajTarih: Pzr Şub 03, 2008 4:05 pm    Mesaj konusu: Alıntıyla Cevap Gönder

teşekkürler
Başa dön
Üye profilini görüntüle Özel mesaj gönder

şahin


Üye


Kayıt: 09 Tem 2010
Mesajlar: 20
Şehir: İstanbul

Cinsiyet: Cinsiyet:Bay

Durumu : Offline

MesajTarih: Cum Ağu 20, 2010 2:52 pm    Mesaj konusu: Alıntıyla Cevap Gönder

yalnış bu şarkının tabı la dan başlaması gerekiyor ve bu tondanda aralarına başka notalar koymuşsun Smile
_________________
şahin...
Başa dön
Üye profilini görüntüle Özel mesaj gönder MSN Messenger
Önceki mesajları göster:   
Başlığa cevap gönder  


1. sayfa (Toplam 1 sayfa)

 
Geçiş Yap:  
Bu forumda yeni başlıklar açamazsınız
Bu forumdaki başlıklara cevap veremezsiniz
Bu forumdaki mesajlarınızı değiştiremezsiniz
Bu forumdaki mesajlarınızı silemezsiniz
Bu forumdaki anketlerde oy kullanamazsınız
Bu foruma eklenti dosyaları gönderemezsiniz
Bu forumdaki dosyaları indirebilirsiniz



Güvenlik Sistemi CBACK CrackerTracker
26058 saldırı girişimi engellendi.

Copyright © 2006 Müzik Fakültesi